Empty Shell (song)

From Shihad Wiki
Jump to: navigation, search
Name Empty Shell
Album/single Love Is the New Hate (2 CD) (1 DVD)
Length 3:26
Alternative titles Dessert Boulder (Live Instrumental) & MT Shell or MT (Setlist)
First live performance
Recorded 2004 (CD), 1 May 2005 (DVD)
Writer/composer
Producer

Additional Information

Lyrics

All the fables that you know
Light 'em up and watch 'em blow
So forget what you been told
Evolution calling
Bury the truth and bury it well

Empty shell
Explode
Empty shell
It's starting to show

All the damage that you sow
Is coming back so watch it grow
When you think you've had it all
Evolution calling
There is a secret that you'll never tell

Empty shell
Explode
Empty shell
It's starting to show

Hell is raining down upon you
Wait for the sky to fall
And life goes grinding on
Like a month of fucking Sundays

Empty shell [x4]

Tab

Guitar

Intro:
||--------------------------------------------------------------------------------------------------------------||
||--------------------------------------------------------------------------------------------------------------||
||--------------------------------------------------------------------------------------------------------------||
||----------------------------------11111111-11111111-11111111-11111111--11111111-11111111-11111111-11111111----||
||-------------------------------0--11111111-11111111-11111111-11111111--11111111-11111111-11111111-11111111----||
||--[9][9]---[9]---[9][9][9]-----0---9-9-9-9--9-9-9-9--9-9-9-9--9-9-9-9---9-9-9-9--9-9-9-9--9-9-9-9--9-9-9-9----||


||----------------------------------------------------------------------------------||
||----------------------------------------------------------------------------------||
||----------------------------------------------------------------------------------||
||--11/12\1111-11111111-11111111-11111111--11/12\1111-11111111-11111111-11111111----||
||--11/12\1111-11111111-11111111-11111111--11/12\1111-11111111-11111111-11111111----||
||---9/10\-9-9--9-9-9-9--9-9-9-9--9-9-9-9---9/10\-9-9--9-9-9-9--9-9-9-9--9-9-9-9----||


||-------------------------------------------------------------------------------------||
||-------------------------------------------------------------------------------------||
||-------------------------------------------------------------------------------------||
||--11/12\11-111111--11/12\11-111111111111--11/12\11-111111--11/12\11-111111111111-----||
||--11/12\11-111111--11/12\11-111111111111--11/12\11-111111--11/12\11-111111111111-----||
||---9/10\-9--9-9-9---9/10\-9--9-9-9-9-9-9---9/10\-9--9-9-9---9/10\-9--9-9-9-9-9-9-----||


||-----------------------------------------||
||-----------------------------------------||
||-----------------------------------------||
||--11/12\11--------11/12\11----11-9-99----||
||--11/12\11--------11/12\11-X--11-9-99----||
||---9/10\-9-0-------9/10\-9-0---9\7-77----||X4


||--------------||
||--------------||
||--------------||
||--11/12\11----||
||--11/12\11----||
||---9/10\-9\---||


Verse:
||---------------------------------------------------||
||---------------------------------------------------||
||---------------------------------------------------||
||--11/12\11--------11/12\11----11-9-99--11/12\11----||
||--11/12\11--------11/12\11----11-9-99--11/12\11----||
||---9/10\-9-0-------9/10\-9-0---9\7-77---9/10\-9\---||



||---------------------------------------------------------------||
||---------------------------------------------------------------||
||---------------------------------------------------------------||
||--------------11/12\11--------11/12\11----11-9-99--11/12\11----||
||--------------11/12\11--------11/12\11----11-9-99--11/12\11----||
||---------------9/10\-9-0-------9/10\-9-0---9\7-77---9/10\-9\---||



Chorus:
||-----------------------------------------||
||-----------------------------------------||
||-----------------------------------------||
||--11/12\11--------11/12\11----11-9-99----||
||--11/12\11--------11/12\11----11-9-99----||
||---9/10\-9-0---00--9/10\-9-0--9-\7-77----||
Jon "Empty Shell...


||-------------------------------------||
||-----0-------------------------0-0---||
||-----3b(pick while bending)-r-p2-2h--||
||-------------------------------------||
||-------------------------------------||
||-------------------------------------||
Phil


Repeat Verse
Repeat Chorus


Post-Chorus:
||--------||
||--------||
||--------||
||--11/---||
||--11/---||
||---9/---||
Jon


||-------------------------------------||
||-----0-------------------------0-0---||
||-----3b(pick while bending)-r-p2-2h--||
||-------------------------------------||
||-------------------------------------||
||-------------------------------------||
Phil (Repeat)


Interlude:
||----------------0---------------||
||----------------0---------------||
||----------------0---------------||
||--11/12\11--2------11-1111------||
||--11/12\11--2------11-1111-x----||
||---9/10\-9--0-------9--9-9-x----||X4


||------------------------------------------------------------------------------||
||------------------------------------------------------------------------------||
||------------------------------------------------------------------------------||
||--11111111-11111111-11111111-11111111--11111111-11111111-11111111-11111111----||
||--11111111-11111111-11111111-11111111--11111111-11111111-11111111-11111111----||
||---9-9-9-9--9-9-9-9--9-9-9-9--9-9-9-9---9-9-9-9--9-9-9-9--9-9-9-9--9-9-9-9----||


||-------------------------------------------------------------------------------------||
||-------------------------------------------------------------------------------------||
||-------------------------------------------------------------------------------------||
||--11/12\11-111111--11/12\11-111111111111--11/12\11-111111--11/12\11-111111111111-----||
||--11/12\11-111111--11/12\11-111111111111--11/12\11-111111--11/12\11-111111111111-----||
||---9/10\-9--9-9-9---9/10\-9--9-9-9-9-9-9---9/10\-9--9-9-9---9/10\-9--9-9-9-9-9-9-----||


Chorus:
||-----------------------------------------||
||-----------------------------------------||
||-----------------------------------------||
||--11/12\11--------11/12\11----11-9-99----||
||--11/12\11--------11/12\11----11-9-99----||
||---9/10\-9-0-------9/10\-9--0--9\7-77----||X4
Jon and Phil


Outro:
||------------------------------------------------------------------------------||
||------------------------------------------------------------------------------||
||------------------------------------------------------------------------------||
||--11111111-11111111-11111111-11111111--11111111-11111111-11111111-11111111----||
||--11111111-11111111-11111111-11111111--11111111-11111111-11111111-11111111----||
||---9-9-9-9--9-9-9-9--9-9-9-9--9-9-9-9---9-9-9-9--9-9-9-9--9-9-9-9--9-9-9-9----||



||------------------------------------------------------------------------------||
||------------------------------------------------------------------------------||
||------------------------------------------------------------------------------||
||--11111111-11111111-11111111-11111111--11111111-11111111-11111111-11111111----||
||--11111111-11111111-11111111-11111111--11111111-11111111-11111111-11111111----||
||---9-9-9-9--9-9-9-9--9-9-9-9--9-9-9-9---9-9-9-9--9-9-9-9--9-9-9-9--9-9-9-9----||


||--------||
||--------||
||--------||
||--11----||
||--11----||
||---9----||Let Ring

[1]

References